ISO-10303-21;
HEADER;
FILE_DESCRIPTION (( 'STEP AP203' ),
    '1' );
FILE_NAME ('QB-CTZHWP-38.1-633-M.STEP',
    '2020-12-24T01:37:27',
    ( '' ),
    ( '' ),
    'SwSTEP 2.0',
    'SolidWorks 2020',
    '' );
FILE_SCHEMA (( 'CONFIG_CONTROL_DESIGN' ));
ENDSEC;

DATA;
#1 = DATE_AND_TIME ( #14, #165 ) ;
#2 = CC_DESIGN_PERSON_AND_ORGANIZATION_ASSIGNMENT ( #93, #103, ( #61 ) ) ;
#3 = APPROVAL_STATUS ( 'not_yet_approved' ) ;
#4 = DIRECTION ( 'NONE',  ( 0.000000000000000000, 0.000000000000000000, 1.000000000000000000 ) ) ;
#5 = LINE ( 'NONE', #58, #15 ) ;
#6 = ORIENTED_EDGE ( 'NONE', *, *, #26, .F. ) ;
#7 = CARTESIAN_POINT ( 'NONE',  ( 3.000000000000001332, 19.05000000000000071, 0.000000000000000000 ) ) ;
#8 = FACE_OUTER_BOUND ( 'NONE', #134, .T. ) ;
#9 = LOCAL_TIME ( 9, 37, 27.00000000000000000, #120 ) ;
#10 = APPROVAL_PERSON_ORGANIZATION ( #39, #77, #62 ) ;
#11 = CARTESIAN_POINT ( 'NONE',  ( -1.614212418857619014, 3.110602869834276865E-15, -25.39999999999999858 ) ) ;
#12 = ADVANCED_BREP_SHAPE_REPRESENTATION ( 'QB-CTZHWP-38.1-633-M', ( #175, #78 ), #135 ) ;
#13 = PRODUCT_DEFINITION ( 'UNKNOWN', '', #28, #126 ) ;
#14 = CALENDAR_DATE ( 2020, 24, 12 ) ;
#15 = VECTOR ( 'NONE', #32, 1000.000000000000000 ) ;
#16 = SHAPE_DEFINITION_REPRESENTATION ( #163, #12 ) ;
#17 = FACE_OUTER_BOUND ( 'NONE', #65, .T. ) ;
#18 = APPROVAL_STATUS ( 'not_yet_approved' ) ;
#19 = EDGE_LOOP ( 'NONE', ( #36, #89 ) ) ;
#20 = DIRECTION ( 'NONE',  ( -1.000000000000000000, -0.000000000000000000, -0.000000000000000000 ) ) ;
#21 = AXIS2_PLACEMENT_3D ( 'NONE', #80, #70, #122 ) ;
#22 = APPROVAL_DATE_TIME ( #101, #55 ) ;
#23 = ORGANIZATION ( 'UNSPECIFIED', 'UNSPECIFIED', '' ) ;
#24 = CC_DESIGN_DATE_AND_TIME_ASSIGNMENT ( #128, #48, ( #61 ) ) ;
#25 = CIRCLE ( 'NONE', #124, 25.39999999999999858 ) ;
#26 = EDGE_CURVE ( 'NONE', #114, #130, #25, .T. ) ;
#27 = CARTESIAN_POINT ( 'NONE',  ( 0.000000000000000000, 0.000000000000000000, 0.000000000000000000 ) ) ;
#28 = PRODUCT_DEFINITION_FORMATION_WITH_SPECIFIED_SOURCE ( 'ANY', '', #54, .NOT_KNOWN. ) ;
#29 = APPROVAL_ROLE ( '' ) ;
#30 = APPLICATION_PROTOCOL_DEFINITION ( 'international standard', 'config_control_design', 1994, #86 ) ;
#31 = CARTESIAN_POINT ( 'NONE',  ( 3.000000000000000000, 0.000000000000000000, 0.000000000000000000 ) ) ;
#32 = DIRECTION ( 'NONE',  ( -1.000000000000000000, -0.000000000000000000, -0.000000000000000000 ) ) ;
#33 = CC_DESIGN_PERSON_AND_ORGANIZATION_ASSIGNMENT ( #82, #99, ( #13 ) ) ;
#34 = DIRECTION ( 'NONE',  ( -1.000000000000000000, -0.000000000000000000, -0.000000000000000000 ) ) ;
#35 = APPROVAL_STATUS ( 'not_yet_approved' ) ;
#36 = ORIENTED_EDGE ( 'NONE', *, *, #26, .T. ) ;
#37 = ORIENTED_EDGE ( 'NONE', *, *, #143, .F. ) ;
#38 = ORIENTED_EDGE ( 'NONE', *, *, #81, .T. ) ;
#39 = PERSON_AND_ORGANIZATION ( #137, #23 ) ;
#40 = CC_DESIGN_APPROVAL ( #77, ( #28 ) ) ;
#41 = VECTOR ( 'NONE', #44, 1000.000000000000000 ) ;
#42 =( LENGTH_UNIT ( ) NAMED_UNIT ( * ) SI_UNIT ( .MILLI., .METRE. ) );
#43 = LINE ( 'NONE', #11, #41 ) ;
#44 = DIRECTION ( 'NONE',  ( -1.000000000000000000, -0.000000000000000000, -0.000000000000000000 ) ) ;
#45 = ADVANCED_FACE ( 'NONE', ( #17 ), #74, .T. ) ;
#46 = DIRECTION ( 'NONE',  ( -1.000000000000000000, -0.000000000000000000, -0.000000000000000000 ) ) ;
#47 = LOCAL_TIME ( 9, 37, 27.00000000000000000, #83 ) ;
#48 = DATE_TIME_ROLE ( 'classification_date' ) ;
#49 = FACE_OUTER_BOUND ( 'NONE', #105, .T. ) ;
#50 = PERSON_AND_ORGANIZATION_ROLE ( 'creator' ) ;
#51 = ORIENTED_EDGE ( 'NONE', *, *, #68, .F. ) ;
#52 = AXIS2_PLACEMENT_3D ( 'NONE', #169, #20, #90 ) ;
#53 = CALENDAR_DATE ( 2020, 24, 12 ) ;
#54 = PRODUCT ( 'QB-CTZHWP-38.1-633-M', 'QB-CTZHWP-38.1-633-M', '', ( #127 ) ) ;
#55 = APPROVAL ( #18, 'UNSPECIFIED' ) ;
#56 = FACE_OUTER_BOUND ( 'NONE', #19, .T. ) ;
#57 = DIRECTION ( 'NONE',  ( -0.000000000000000000, 0.000000000000000000, 1.000000000000000000 ) ) ;
#58 = CARTESIAN_POINT ( 'NONE',  ( -1.614212418857619014, 0.000000000000000000, 25.39999999999999858 ) ) ;
#59 = ADVANCED_FACE ( 'NONE', ( #8 ), #167, .T. ) ;
#60 = DIRECTION ( 'NONE',  ( -1.000000000000000000, -0.000000000000000000, -0.000000000000000000 ) ) ;
#61 = SECURITY_CLASSIFICATION ( '', '', #168 ) ;
#62 = APPROVAL_ROLE ( '' ) ;
#63 = ORIENTED_EDGE ( 'NONE', *, *, #160, .T. ) ;
#64 = ORIENTED_EDGE ( 'NONE', *, *, #172, .T. ) ;
#65 = EDGE_LOOP ( 'NONE', ( #37, #63, #38, #51 ) ) ;
#66 = CIRCLE ( 'NONE', #161, 25.39999999999999858 ) ;
#67 = CARTESIAN_POINT ( 'NONE',  ( -1.614212418857619014, 0.000000000000000000, 0.000000000000000000 ) ) ;
#68 = EDGE_CURVE ( 'NONE', #130, #114, #150, .T. ) ;
#69 = CC_DESIGN_PERSON_AND_ORGANIZATION_ASSIGNMENT ( #140, #153, ( #54 ) ) ;
#70 = DIRECTION ( 'NONE',  ( 1.000000000000000000, 0.000000000000000000, 0.000000000000000000 ) ) ;
#71 = DIRECTION ( 'NONE',  ( 1.000000000000000000, 0.000000000000000000, 0.000000000000000000 ) ) ;
#72 = CALENDAR_DATE ( 2020, 24, 12 ) ;
#73 = CARTESIAN_POINT ( 'NONE',  ( 3.000000000000000000, 0.000000000000000000, 0.000000000000000000 ) ) ;
#74 = CYLINDRICAL_SURFACE ( 'NONE', #52, 25.39999999999999858 ) ;
#75 = PERSON_AND_ORGANIZATION ( #137, #23 ) ;
#76 = CLOSED_SHELL ( 'NONE', ( #59, #79, #45, #147 ) ) ;
#77 = APPROVAL ( #35, 'UNSPECIFIED' ) ;
#78 = AXIS2_PLACEMENT_3D ( 'NONE', #27, #4, #71 ) ;
#79 = ADVANCED_FACE ( 'NONE', ( #49 ), #145, .F. ) ;
#80 = CARTESIAN_POINT ( 'NONE',  ( -3.000000000000001332, 19.05000000000000071, 0.000000000000000000 ) ) ;
#81 = EDGE_CURVE ( 'NONE', #102, #114, #5, .T. ) ;
#82 = PERSON_AND_ORGANIZATION ( #137, #23 ) ;
#83 = COORDINATED_UNIVERSAL_TIME_OFFSET ( 8, 0, .AHEAD. ) ;
#84 = DIRECTION ( 'NONE',  ( 0.000000000000000000, 0.000000000000000000, 1.000000000000000000 ) ) ;
#85 = DATE_AND_TIME ( #72, #47 ) ;
#86 = APPLICATION_CONTEXT ( 'configuration controlled 3d designs of mechanical parts and assemblies' ) ;
#87 = DIRECTION ( 'NONE',  ( 0.000000000000000000, 0.000000000000000000, 1.000000000000000000 ) ) ;
#88 = APPROVAL_ROLE ( '' ) ;
#89 = ORIENTED_EDGE ( 'NONE', *, *, #68, .T. ) ;
#90 = DIRECTION ( 'NONE',  ( 0.000000000000000000, 0.000000000000000000, 1.000000000000000000 ) ) ;
#91 = DATE_AND_TIME ( #117, #111 ) ;
#92 = DIRECTION ( 'NONE',  ( -1.000000000000000000, -0.000000000000000000, -0.000000000000000000 ) ) ;
#93 = PERSON_AND_ORGANIZATION ( #137, #23 ) ;
#94 = CC_DESIGN_APPROVAL ( #55, ( #61 ) ) ;
#95 = CC_DESIGN_SECURITY_CLASSIFICATION ( #61, ( #28 ) ) ;
#96 = PRODUCT_RELATED_PRODUCT_CATEGORY ( 'detail', '', ( #54 ) ) ;
#97 = UNCERTAINTY_MEASURE_WITH_UNIT (LENGTH_MEASURE( 1.000000000000000082E-05 ), #42, 'distance_accuracy_value', 'NONE');
#98 = AXIS2_PLACEMENT_3D ( 'NONE', #154, #34, #87 ) ;
#99 = PERSON_AND_ORGANIZATION_ROLE ( 'creator' ) ;
#100 = APPROVAL ( #3, 'UNSPECIFIED' ) ;
#101 = DATE_AND_TIME ( #53, #9 ) ;
#102 = VERTEX_POINT ( 'NONE', #164 ) ;
#103 = PERSON_AND_ORGANIZATION_ROLE ( 'classification_officer' ) ;
#104 = DIRECTION ( 'NONE',  ( -1.000000000000000000, -0.000000000000000000, -0.000000000000000000 ) ) ;
#105 = EDGE_LOOP ( 'NONE', ( #171, #116 ) ) ;
#106 = APPROVAL_DATE_TIME ( #91, #77 ) ;
#107 = DATE_TIME_ROLE ( 'creation_date' ) ;
#108 = CC_DESIGN_DATE_AND_TIME_ASSIGNMENT ( #1, #107, ( #13 ) ) ;
#109 = CARTESIAN_POINT ( 'NONE',  ( -3.000000000000000000, 3.110602869834276865E-15, -25.39999999999999858 ) ) ;
#110 = DIRECTION ( 'NONE',  ( 0.000000000000000000, 0.000000000000000000, 1.000000000000000000 ) ) ;
#111 = LOCAL_TIME ( 9, 37, 27.00000000000000000, #155 ) ;
#112 = APPROVAL_DATE_TIME ( #85, #100 ) ;
#113 = PERSON_AND_ORGANIZATION ( #137, #23 ) ;
#114 = VERTEX_POINT ( 'NONE', #151 ) ;
#115 = PERSON_AND_ORGANIZATION_ROLE ( 'design_supplier' ) ;
#116 = ORIENTED_EDGE ( 'NONE', *, *, #160, .F. ) ;
#117 = CALENDAR_DATE ( 2020, 24, 12 ) ;
#118 = VERTEX_POINT ( 'NONE', #138 ) ;
#119 = DIRECTION ( 'NONE',  ( 0.000000000000000000, 0.000000000000000000, 1.000000000000000000 ) ) ;
#120 = COORDINATED_UNIVERSAL_TIME_OFFSET ( 8, 0, .AHEAD. ) ;
#121 = APPROVAL_PERSON_ORGANIZATION ( #123, #100, #29 ) ;
#122 = DIRECTION ( 'NONE',  ( 0.000000000000000000, 0.000000000000000000, -1.000000000000000000 ) ) ;
#123 = PERSON_AND_ORGANIZATION ( #137, #23 ) ;
#124 = AXIS2_PLACEMENT_3D ( 'NONE', #132, #92, #146 ) ;
#125 = CC_DESIGN_PERSON_AND_ORGANIZATION_ASSIGNMENT ( #156, #115, ( #28 ) ) ;
#126 = DESIGN_CONTEXT ( 'detailed design', #86, 'design' ) ;
#127 = MECHANICAL_CONTEXT ( 'NONE', #173, 'mechanical' ) ;
#128 = DATE_AND_TIME ( #131, #159 ) ;
#129 = APPROVAL_PERSON_ORGANIZATION ( #75, #55, #88 ) ;
#130 = VERTEX_POINT ( 'NONE', #109 ) ;
#131 = CALENDAR_DATE ( 2020, 24, 12 ) ;
#132 = CARTESIAN_POINT ( 'NONE',  ( -3.000000000000000000, 0.000000000000000000, 0.000000000000000000 ) ) ;
#133 = CIRCLE ( 'NONE', #141, 25.39999999999999858 ) ;
#134 = EDGE_LOOP ( 'NONE', ( #64, #158, #6, #157 ) ) ;
#135 =( GEOMETRIC_REPRESENTATION_CONTEXT ( 3 ) GLOBAL_UNCERTAINTY_ASSIGNED_CONTEXT ( ( #97 ) ) GLOBAL_UNIT_ASSIGNED_CONTEXT ( ( #42, #142, #166 ) ) REPRESENTATION_CONTEXT ( 'NONE', 'WORKASPACE' ) );
#136 = COORDINATED_UNIVERSAL_TIME_OFFSET ( 8, 0, .AHEAD. ) ;
#137 = PERSON ( 'UNSPECIFIED', 'UNSPECIFIED', 'UNSPECIFIED', ('UNSPECIFIED'), ('UNSPECIFIED'), ('UNSPECIFIED') ) ;
#138 = CARTESIAN_POINT ( 'NONE',  ( 3.000000000000000000, 3.110602869834276865E-15, -25.39999999999999858 ) ) ;
#139 = COORDINATED_UNIVERSAL_TIME_OFFSET ( 8, 0, .AHEAD. ) ;
#140 = PERSON_AND_ORGANIZATION ( #137, #23 ) ;
#141 = AXIS2_PLACEMENT_3D ( 'NONE', #73, #46, #110 ) ;
#142 =( NAMED_UNIT ( * ) PLANE_ANGLE_UNIT ( ) SI_UNIT ( $, .RADIAN. ) );
#143 = EDGE_CURVE ( 'NONE', #118, #130, #43, .T. ) ;
#144 = APPLICATION_PROTOCOL_DEFINITION ( 'international standard', 'config_control_design', 1994, #173 ) ;
#145 = PLANE ( 'NONE',  #170 ) ;
#146 = DIRECTION ( 'NONE',  ( 0.000000000000000000, 0.000000000000000000, 1.000000000000000000 ) ) ;
#147 = ADVANCED_FACE ( 'NONE', ( #56 ), #152, .F. ) ;
#148 = CC_DESIGN_APPROVAL ( #100, ( #13 ) ) ;
#149 = CC_DESIGN_PERSON_AND_ORGANIZATION_ASSIGNMENT ( #113, #50, ( #28 ) ) ;
#150 = CIRCLE ( 'NONE', #98, 25.39999999999999858 ) ;
#151 = CARTESIAN_POINT ( 'NONE',  ( -3.000000000000000000, 0.000000000000000000, 25.39999999999999858 ) ) ;
#152 = PLANE ( 'NONE',  #21 ) ;
#153 = PERSON_AND_ORGANIZATION_ROLE ( 'design_owner' ) ;
#154 = CARTESIAN_POINT ( 'NONE',  ( -3.000000000000000000, 0.000000000000000000, 0.000000000000000000 ) ) ;
#155 = COORDINATED_UNIVERSAL_TIME_OFFSET ( 8, 0, .AHEAD. ) ;
#156 = PERSON_AND_ORGANIZATION ( #137, #23 ) ;
#157 = ORIENTED_EDGE ( 'NONE', *, *, #81, .F. ) ;
#158 = ORIENTED_EDGE ( 'NONE', *, *, #143, .T. ) ;
#159 = LOCAL_TIME ( 9, 37, 27.00000000000000000, #136 ) ;
#160 = EDGE_CURVE ( 'NONE', #118, #102, #133, .T. ) ;
#161 = AXIS2_PLACEMENT_3D ( 'NONE', #31, #60, #84 ) ;
#162 = DIRECTION ( 'NONE',  ( -1.000000000000000000, 0.000000000000000000, -0.000000000000000000 ) ) ;
#163 = PRODUCT_DEFINITION_SHAPE ( 'NONE', 'NONE',  #13 ) ;
#164 = CARTESIAN_POINT ( 'NONE',  ( 3.000000000000000000, 0.000000000000000000, 25.39999999999999858 ) ) ;
#165 = LOCAL_TIME ( 9, 37, 27.00000000000000000, #139 ) ;
#166 =( NAMED_UNIT ( * ) SI_UNIT ( $, .STERADIAN. ) SOLID_ANGLE_UNIT ( ) );
#167 = CYLINDRICAL_SURFACE ( 'NONE', #174, 25.39999999999999858 ) ;
#168 = SECURITY_CLASSIFICATION_LEVEL ( 'unclassified' ) ;
#169 = CARTESIAN_POINT ( 'NONE',  ( -1.614212418857619014, 0.000000000000000000, 0.000000000000000000 ) ) ;
#170 = AXIS2_PLACEMENT_3D ( 'NONE', #7, #162, #57 ) ;
#171 = ORIENTED_EDGE ( 'NONE', *, *, #172, .F. ) ;
#172 = EDGE_CURVE ( 'NONE', #102, #118, #66, .T. ) ;
#173 = APPLICATION_CONTEXT ( 'configuration controlled 3d designs of mechanical parts and assemblies' ) ;
#174 = AXIS2_PLACEMENT_3D ( 'NONE', #67, #104, #119 ) ;
#175 = MANIFOLD_SOLID_BREP ( 'Ðý×', #76 ) ;
ENDSEC;
END-ISO-10303-21;
